  0
SECTION
  2
HEADER
  9
$ACADVER
  1
AC1009
  9
$INSBASE
 10
0.0
 20
0.0
 30
0.0
  9
$EXTMIN
 10
-129.20269
 20
-75.1408
 30
0.0
  9
$EXTMAX
 10
156.90009
 20
123.82586
 30
0.0
  9
$LIMMIN
 10
0.0
 20
0.0
  9
$LIMMAX
 10
0.0
 20
0.0
  9
$ORTHOMODE
 70
     0
  9
$REGENMODE
 70
     1
  9
$FILLMODE
 70
     1
  9
$QTEXTMODE
 70
     0
  9
$MIRRTEXT
 70
     1
  9
$DRAGMODE
 70
     2
  9
$LTSCALE
 40
1.0
  9
$OSMODE
 70
     0
  9
$ATTMODE
 70
     1
  9
$TEXTSIZE
 40
0.2
  9
$TRACEWID
 40
0.05
  9
$TEXTSTYLE
  7
STANDARD
  9
$CLAYER
  8
0
  9
$CELTYPE
  6
CONTINUOUS
  9
$CECOLOR
 62
   256
  9
$DIMSCALE
 40
1.0
  9
$DIMASZ
 40
0.18
  9
$DIMEXO
 40
0.0625
  9
$DIMDLI
 40
0.38
  9
$DIMRND
 40
0.0
  9
$DIMDLE
 40
0.0
  9
$DIMEXE
 40
0.18
  9
$DIMTP
 40
0.0
  9
$DIMTM
 40
0.0
  9
$DIMTXT
 40
0.18
  9
$DIMCEN
 40
0.09
  9
$DIMTSZ
 40
0.0
  9
$DIMTOL
 70
     0
  9
$DIMLIM
 70
     0
  9
$DIMTIH
 70
     1
  9
$DIMTOH
 70
     1
  9
$DIMSE1
 70
     0
  9
$DIMSE2
 70
     0
  9
$DIMTAD
 70
     0
  9
$DIMZIN
 70
     0
  9
$DIMBLK
  1

  9
$DIMASO
 70
     1
  9
$DIMSHO
 70
     1
  9
$DIMPOST
  1

  9
$DIMAPOST
  1

  9
$DIMALT
 70
     0
  9
$DIMALTD
 70
     2
  9
$DIMALTF
 40
25.4
  9
$DIMLFAC
 40
1.0
  9
$DIMTOFL
 70
     0
  9
$DIMTVP
 40
0.0
  9
$DIMTIX
 70
     0
  9
$DIMSOXD
 70
     0
  9
$DIMSAH
 70
     0
  9
$DIMBLK1
  1

  9
$DIMBLK2
  1

  9
$DIMSTYLE
  2
STANDARD
  9
$DIMCLRD
 70
     0
  9
$DIMCLRE
 70
     0
  9
$DIMCLRT
 70
     0
  9
$DIMTFAC
 40
1.0
  9
$DIMGAP
 40
0.09
  9
$LUNITS
 70
     2
  9
$LUPREC
 70
     4
  9
$AXISMODE
 70
     0
  9
$AXISUNIT
 10
0.0
 20
0.0
  9
$SKETCHINC
 40
0.1
  9
$FILLETRAD
 40
0.0
  9
$AUNITS
 70
     0
  9
$AUPREC
 70
     0
  9
$MENU
  1
acad
  9
$ELEVATION
 40
0.0
  9
$PELEVATION
 40
0.0
  9
$THICKNESS
 40
0.0
  9
$LIMCHECK
 70
     0
  9
$BLIPMODE
 70
     1
  9
$CHAMFERA
 40
0.0
  9
$CHAMFERB
 40
0.0
  9
$SKPOLY
 70
     0
  9
$TDCREATE
 40
2453167.463125000
  9
$TDUPDATE
 40
2453167.463125000
  9
$TDINDWG
 40
0.0000000000
  9
$TDUSRTIMER
 40
0.0000000000
  9
$USRTIMER
 70
     1
  9
$ANGBASE
 50
0.0
  9
$ANGDIR
 70
     0
  9
$PDMODE
 70
     0
  9
$PDSIZE
 40
0.0
  9
$PLINEWID
 40
0.0
  9
$COORDS
 70
     0
  9
$SPLFRAME
 70
     0
  9
$SPLINETYPE
 70
     6
  9
$SPLINESEGS
 70
     8
  9
$ATTDIA
 70
     0
  9
$ATTREQ
 70
     1
  9
$HANDLING
 70
     1
  9
$HANDSEED
  5
87
  9
$SURFTAB1
 70
     6
  9
$SURFTAB2
 70
     6
  9
$SURFTYPE
 70
     6
  9
$SURFU
 70
     6
  9
$SURFV
 70
     6
  9
$UCSNAME
  2

  9
$UCSORG
 10
0.0
 20
0.0
 30
0.0
  9
$UCSXDIR
 10
1.0
 20
0.0
 30
0.0
  9
$UCSYDIR
 10
0.0
 20
1.0
 30
0.0
  9
$PUCSNAME
  2

  9
$PUCSORG
 10
0.0
 20
0.0
 30
0.0
  9
$PUCSXDIR
 10
1.0
 20
0.0
 30
0.0
  9
$PUCSYDIR
 10
0.0
 20
1.0
 30
0.0
  9
$USERI1
 70
     0
  9
$USERI2
 70
     0
  9
$USERI3
 70
     0
  9
$USERI4
 70
     0
  9
$USERI5
 70
     0
  9
$USERR1
 40
0.0
  9
$USERR2
 40
0.0
  9
$USERR3
 40
0.0
  9
$USERR4
 40
0.0
  9
$USERR5
 40
0.0
  9
$WORLDVIEW
 70
     1
  9
$SHADEDGE
 70
     3
  9
$SHADEDIF
 70
    70
  9
$TILEMODE
 70
     1
  9
$MAXACTVP
 70
    16
  9
$PINSBASE
 10
0.0
 20
0.0
 30
0.0
  9
$PLIMCHECK
 70
     0
  9
$PEXTMIN
 10
1.000000E+20
 20
1.000000E+20
 30
1.000000E+20
  9
$PEXTMAX
 10
-1.000000E+20
 20
-1.000000E+20
 30
-1.000000E+20
  9
$PLIMMIN
 10
0.0
 20
0.0
  9
$PLIMMAX
 10
12.0
 20
9.0
  9
$UNITMODE
 70
     0
  9
$VISRETAIN
 70
     0
  9
$PLINEGEN
 70
     1
  9
$PSLTSCALE
 70
     0
  9
$TREEDEPTH
 70
  3020
  9
$DWGCODEPAGE
  3
dos932
  0
ENDSEC
  0
SECTION
  2
TABLES
  0
TABLE
  2
VPORT
 70
     1
  0
VPORT
  2
*ACTIVE
 70
     0
 10
0.0
 20
0.0
 11
1.0
 21
1.0
 12
13.8487
 22
24.34253
 13
0.0
 23
0.0
 14
1.0
 24
1.0
 15
0.0
 25
0.0
 16
0.0
 26
0.0
 36
1.0
 17
0.0
 27
0.0
 37
0.0
 40
198.96666
 41
0.688564
 42
50.0
 43
0.0
 44
0.0
 50
0.0
 51
0.0
 71
     0
 72
   100
 73
     1
 74
     1
 75
     0
 76
     0
 77
     0
 78
     0
  0
ENDTAB
  0
TABLE
  2
LTYPE
 70
    21
  0
LTYPE
  2
CONTINUOUS
 70
     0
  3
Solid line
 72
    65
 73
     0
 40
0.0
  0
LTYPE
  2
VECTORWORKS_DASH_01
 70
     0
  3
(unavailable)
 72
    65
 73
     4
 40
5.704921
 49
3.565674
 49
-0.713135
 49
0.713135
 49
-0.713135
  0
LTYPE
  2
VECTORWORKS_DASH_02
 70
     0
  3
(unavailable)
 72
    65
 73
     2
 40
0.713115
 49
0.000388
 49
-0.712747
  0
LTYPE
  2
VECTORWORKS_DASH_03
 70
     0
  3
(unavailable)
 72
    65
 73
     2
 40
6.35
 49
5.291537
 49
-1.058463
  0
LTYPE
  2
VECTORWORKS_DASH_04
 70
     0
  3
(unavailable)
 72
    65
 73
     2
 40
7.760767
 49
6.702692
 49
-1.058075
  0
LTYPE
  2
VECTORWORKS_DASH_05
 70
     0
  3
(unavailable)
 72
    65
 73
     2
 40
1.058075
 49
0.352692
 49
-0.705383
  0
LTYPE
  2
VECTORWORKS_DASH_06
 70
     0
  3
(unavailable)
 72
    65
 73
     4
 40
5.291537
 49
3.175
 49
-1.058075
 49
0.352692
 49
-0.705771
  0
LTYPE
  2
VECTORWORKS_DASH_07
 70
     0
  3
(unavailable)
 72
    65
 73
     6
 40
9.525
 49
3.175
 49
-1.058075
 49
3.175
 49
-1.058463
 49
0.352692
 49
-0.705771
  0
LTYPE
  2
VECTORWORKS_DASH_08
 70
     0
  3
(unavailable)
 72
    65
 73
     6
 40
6.35
 49
3.175
 49
-1.058075
 49
0.352692
 49
-0.705771
 49
0.352692
 49
-0.705771
  0
LTYPE
  2
VECTORWORKS_DASH_09
 70
     0
  3
(unavailable)
 72
    65
 73
     4
 40
25.4
 49
19.05
 49
-1.411154
 49
3.527692
 49
-1.411154
  0
LTYPE
  2
VECTORWORKS_DASH_10
 70
     0
  3
(unavailable)
 72
    65
 73
     6
 40
30.1625
 49
19.05
 49
-1.411154
 49
3.527692
 49
-1.411154
 49
3.175
 49
-1.5875
  0
LTYPE
  2
VECTORWORKS_DASH_11
 70
     0
  3
(unavailable)
 72
    65
 73
     4
 40
17.5
 49
12.999982
 49
-1.499908
 49
1.499908
 49
-1.499908
  0
LTYPE
  2
VECTORWORKS_DASH_12
 70
     0
  3
(unavailable)
 72
    65
 73
     6
 40
15.5
 49
7.999899
 49
-1.499908
 49
1.499908
 49
-1.499908
 49
1.499908
 49
-1.499908
  0
LTYPE
  2
VECTORWORKS_DASH_13
 70
     0
  3
(unavailable)
 72
    65
 73
     4
 40
38.741821
 49
28.779639
 49
-3.320728
 49
3.320728
 49
-3.320728
  0
LTYPE
  2
VECTORWORKS_DASH_14
 70
     0
  3
(unavailable)
 72
    65
 73
     4
 40
23.295865
 49
17.305533
 49
-1.996777
 49
1.996777
 49
-1.996777
  0
LTYPE
  2
VECTORWORKS_DASH_15
 70
     0
  3
(unavailable)
 72
    65
 73
     4
 40
23.065259
 49
17.134225
 49
-1.977011
 49
1.977011
 49
-1.977011
  0
LTYPE
  2
VECTORWORKS_DASH_16
 70
     0
  3
(unavailable)
 72
    65
 73
     4
 40
1.16272
 49
0.7267
 49
-0.14534
 49
0.14534
 49
-0.14534
  0
LTYPE
  2
VECTORWORKS_DASH_17
 70
     0
  3
(unavailable)
 72
    65
 73
     4
 40
1.082492
 49
0.676703
 49
-0.135263
 49
0.135263
 49
-0.135263
  0
LTYPE
  2
VECTORWORKS_DASH_18
 70
     0
  3
(unavailable)
 72
    65
 73
     6
 40
1.353018
 49
0.676703
 49
-0.135263
 49
0.135263
 49
-0.135263
 49
0.135263
 49
-0.135263
  0
LTYPE
  2
VECTORWORKS_DASH_19
 70
     0
  3
(unavailable)
 72
    65
 73
     2
 40
1.447586
 49
0.965057
 49
-0.482529
  0
LTYPE
  2
VECTORWORKS_DASH_20
 70
     0
  3
(unavailable)
 72
    65
 73
     4
 40
7.720847
 49
4.825674
 49
-0.965057
 49
0.965057
 49
-0.965057
  0
ENDTAB
  0
TABLE
  2
LAYER
 70
     8
  0
LAYER
  2
0
 70
     0
 62
     7
  6
CONTINUOUS
  0
LAYER
  2
____
 70
    64
 62
     7
  6
CONTINUOUS
  0
LAYER
  2
____1
 70
    64
 62
     7
  6
CONTINUOUS
  0
LAYER
  2
0
 70
    64
 62
     7
  6
CONTINUOUS
  0
LAYER
  2
__-____
 70
    64
 62
     7
  6
CONTINUOUS
  0
LAYER
  2
_H_A-____
 70
    64
 62
     7
  6
CONTINUOUS
  0
LAYER
  2
1
 70
    64
 62
     7
  6
CONTINUOUS
  0
LAYER
  2
3
 70
    64
 62
     7
  6
CONTINUOUS
  0
ENDTAB
  0
TABLE
  2
STYLE
 70
     1
  0
STYLE
  2
STANDARD
 70
     0
 40
0.0
 41
1.0
 50
0.0
 71
     0
 42
0.0
  3
txt
  4
BIGFONT.SHX
  0
ENDTAB
  0
TABLE
  2
VIEW
 70
     0
  0
ENDTAB
  0
TABLE
  2
UCS
 70
     0
  0
ENDTAB
  0
TABLE
  2
APPID
 70
     1
  0
APPID
  2
ACAD
 70
     0
  0
ENDTAB
  0
TABLE
  2
DIMSTYLE
 70
     1
  0
DIMSTYLE
  2
STANDARD
 70
     0
  3

  4

  5

  6

  7

 40
1.0
 41
0.18
 42
0.0625
 43
0.38
 44
0.18
 45
0.0
 46
0.0
 47
0.0
 48
0.0
140
0.18
141
0.09
142
0.0
143
25.4
144
1.0
145
0.0
146
1.0
147
0.09
 71
     0
 72
     0
 73
     1
 74
     1
 75
     0
 76
     0
 77
     0
 78
     0
170
     0
171
     2
172
     0
173
     0
174
     0
175
     0
176
     0
177
     0
178
     0
  0
ENDTAB
  0
ENDSEC
  0
SECTION
  2
BLOCKS
  0
BLOCK
  8
____1
  5
3E
  2
*G0
 70
     1
 10
0.0
 20
0.0
 30
0.0
  3

  0
TEXT
  8
____1
 62
     7
  5
3F
 10
-21.56873
 20
-11.5023
 30
0.0
 40
2.54
  1
P.C.D φ43.5
 50
90.0
 11
-21.56873
 21
-11.5023
 31
0.0
 73
     3
  0
ENDBLK
  8
____1
  5
40
  0
BLOCK
  8
____1
  5
41
  2
*G1
 70
     1
 10
0.0
 20
0.0
 30
0.0
  3

  0
TEXT
  8
____1
 62
     7
  5
42
 10
-28.56873
 20
-6.7398
 30
0.0
 40
2.54
  1
φ50.5
 50
90.0
 11
-28.56873
 21
-6.7398
 31
0.0
 73
     3
  0
ENDBLK
  8
____1
  5
43
  0
BLOCK
  8
____1
  5
44
  2
*G2
 70
     1
 10
0.0
 20
0.0
 30
0.0
  3

  0
TEXT
  8
____1
 62
     7
  5
45
 10
-15.74373
 20
36.9477
 30
0.0
 40
2.54
  1
2.85
 11
-15.74373
 21
36.9477
 31
0.0
 73
     3
  0
ENDBLK
  8
____1
  5
46
  0
BLOCK
  8
____1
  5
47
  2
*G3
 70
     1
 10
0.0
 20
0.0
 30
0.0
  3

  0
TEXT
  8
____1
 62
     7
  5
48
 10
-0.31873
 20
43.9477
 30
0.0
 40
2.54
  1
21.5
 11
-0.31873
 21
43.9477
 31
0.0
 73
     3
  0
ENDBLK
  8
____1
  5
49
  0
BLOCK
  8
____1
  5
4A
  2
*G4
 70
     1
 10
0.0
 20
0.0
 30
0.0
  3

  0
TEXT
  8
____1
 62
     7
  5
4B
 10
19.93127
 20
-5.1523
 30
0.0
 40
2.54
  1
φ23
 50
90.0
 11
19.93127
 21
-5.1523
 31
0.0
 73
     3
  0
ENDBLK
  8
____1
  5
4C
  0
BLOCK
  8
____1
  5
4D
  2
*G5
 70
     1
 10
0.0
 20
0.0
 30
0.0
  3

  0
TEXT
  8
____1
 62
     7
  5
4E
 10
26.93127
 20
-6.7398
 30
0.0
 40
2.54
  1
φ25.4
 50
90.0
 11
26.93127
 21
-6.7398
 31
0.0
 73
     3
  0
ENDBLK
  8
____1
  5
4F
  0
ENDSEC
  0
SECTION
  2
ENTITIES
  0
LINE
  8
____
  6
CONTINUOUS
 62
     6
  5
50
 10
5.95497
 20
-2.88477
 30
0.0
 11
5.95497
 21
47.61523
 31
0.0
  0
LINE
  8
____
  6
CONTINUOUS
 62
     6
  5
51
 10
8.80497
 20
-2.88477
 30
0.0
 11
8.80497
 21
22.36523
 31
0.0
  0
LINE
  8
____
  6
CONTINUOUS
 62
     6
  5
52
 10
5.95497
 20
47.61523
 30
0.0
 11
8.80497
 21
47.61523
 31
0.0
  0
LINE
  8
____
  6
CONTINUOUS
 62
     6
  5
53
 10
5.95497
 20
-2.88477
 30
0.0
 11
8.80497
 21
-2.88477
 31
0.0
  0
LINE
  8
____
  6
VECTORWORKS_DASH_06
 62
     6
  5
54
 10
0.95497
 20
22.36523
 30
0.0
 11
32.45497
 21
22.36523
 31
0.0
  0
LINE
  8
____
  6
CONTINUOUS
 62
     6
  5
55
 10
8.80497
 20
47.61523
 30
0.0
 11
13.18119
 21
35.59161
 31
0.0
  0
LINE
  8
____
  6
CONTINUOUS
 62
     6
  5
56
 10
8.80497
 20
-2.88477
 30
0.0
 11
13.18119
 21
9.13885
 31
0.0
  0
LINE
  8
____
  6
CONTINUOUS
 62
     6
  5
57
 10
27.45497
 20
9.66523
 30
0.0
 11
13.93295
 21
9.66523
 31
0.0
  0
LINE
  8
____
  6
CONTINUOUS
 62
     6
  5
58
 10
27.45497
 20
35.06523
 30
0.0
 11
13.93295
 21
35.06523
 31
0.0
  0
LINE
  8
____
  6
CONTINUOUS
 62
     6
  5
59
 10
27.45497
 20
9.66523
 30
0.0
 11
27.45497
 21
35.06523
 31
0.0
  0
LINE
  8
____
  6
CONTINUOUS
 62
     6
  5
5A
 10
27.45497
 20
33.86523
 30
0.0
 11
5.95497
 21
33.86523
 31
0.0
  0
LINE
  8
____
  6
CONTINUOUS
 62
     6
  5
5B
 10
3.45497
 20
44.11523
 30
0.0
 11
8.45497
 21
44.11523
 31
0.0
  0
ARC
  8
____
  6
CONTINUOUS
 62
     6
  5
5C
 10
5.95497
 20
44.11523
 30
0.0
 40
1.5
 50
270.0
 51
90.0
  0
LINE
  8
____1
  6
CONTINUOUS
 62
     6
  5
5D
 10
0.45497
 20
44.11523
 30
0.0
 11
-4.04503
 21
44.11523
 31
0.0
  0
SOLID
  8
____1
 62
     6
  5
5F
 10
-4.04503
 20
44.11523
 30
0.0
 11
-3.76132
 21
43.05638
 31
0.0
 12
-4.32875
 22
43.05638
 32
0.0
 13
-4.32875
 23
43.05638
 33
0.0
  0
SOLID
  8
____1
 62
     6
  5
60
 10
-4.04503
 20
0.61523
 30
0.0
 11
-4.32875
 21
1.67407
 31
0.0
 12
-3.76132
 22
1.67407
 32
0.0
 13
-3.76132
 23
1.67407
 33
0.0
  0
LINE
  8
____1
  6
CONTINUOUS
 62
     6
  5
5E
 10
-4.04503
 20
44.11523
 30
0.0
 11
-4.04503
 21
0.61523
 31
0.0
  0
INSERT
  8
____1
  5
61
  2
*G0
 10
13.8487
 20
24.34253
 30
0.0
  0
LINE
  8
____1
  6
CONTINUOUS
 62
     6
  5
62
 10
2.95497
 20
47.61523
 30
0.0
 11
-11.04503
 21
47.61523
 31
0.0
  0
LINE
  8
____1
  6
CONTINUOUS
 62
     6
  5
63
 10
2.95497
 20
-2.88477
 30
0.0
 11
-11.04503
 21
-2.88477
 31
0.0
  0
SOLID
  8
____1
 62
     6
  5
65
 10
-11.04503
 20
47.61523
 30
0.0
 11
-10.76132
 21
46.55638
 31
0.0
 12
-11.32875
 22
46.55638
 32
0.0
 13
-11.32875
 23
46.55638
 33
0.0
  0
SOLID
  8
____1
 62
     6
  5
66
 10
-11.04503
 20
-2.88477
 30
0.0
 11
-11.32875
 21
-1.82593
 31
0.0
 12
-10.76132
 22
-1.82593
 32
0.0
 13
-10.76132
 23
-1.82593
 33
0.0
  0
LINE
  8
____1
  6
CONTINUOUS
 62
     6
  5
64
 10
-11.04503
 20
47.61523
 30
0.0
 11
-11.04503
 21
-2.88477
 31
0.0
  0
INSERT
  8
____1
  5
67
  2
*G1
 10
13.8487
 20
24.34253
 30
0.0
  0
LINE
  8
____1
  6
CONTINUOUS
 62
     6
  5
68
 10
5.95497
 20
50.61523
 30
0.0
 11
5.95497
 21
57.61523
 31
0.0
  0
LINE
  8
____1
  6
CONTINUOUS
 62
     6
  5
69
 10
8.80497
 20
50.61523
 30
0.0
 11
8.80497
 21
57.61523
 31
0.0
  0
LINE
  8
____1
  6
CONTINUOUS
 62
     6
  5
6A
 10
8.80497
 20
57.61523
 30
0.0
 11
5.95497
 21
57.61523
 31
0.0
  0
SOLID
  8
____1
 62
     6
  5
6C
 10
5.95497
 20
57.61523
 30
0.0
 11
4.89612
 21
57.33151
 31
0.0
 12
4.89612
 22
57.89894
 32
0.0
 13
4.89612
 23
57.89894
 33
0.0
  0
LINE
  8
____1
  6
CONTINUOUS
 62
     6
  5
6B
 10
5.95497
 20
57.61523
 30
0.0
 11
-1.89503
 21
57.61523
 31
0.0
  0
SOLID
  8
____1
 62
     6
  5
6E
 10
8.80497
 20
57.61523
 30
0.0
 11
9.86381
 21
57.89894
 31
0.0
 12
9.86381
 22
57.33151
 32
0.0
 13
9.86381
 23
57.33151
 33
0.0
  0
LINE
  8
____1
  6
CONTINUOUS
 62
     6
  5
6D
 10
8.80497
 20
57.61523
 30
0.0
 11
11.80497
 21
57.61523
 31
0.0
  0
INSERT
  8
____1
  5
6F
  2
*G2
 10
13.8487
 20
24.34253
 30
0.0
  0
LINE
  8
____1
  6
CONTINUOUS
 62
     6
  5
70
 10
5.95497
 20
50.61523
 30
0.0
 11
5.95497
 21
64.61523
 31
0.0
  0
LINE
  8
____1
  6
CONTINUOUS
 62
     6
  5
71
 10
27.45497
 20
38.06523
 30
0.0
 11
27.45497
 21
64.61523
 31
0.0
  0
SOLID
  8
____1
 62
     6
  5
73
 10
5.95497
 20
64.61523
 30
0.0
 11
7.01381
 21
64.89894
 31
0.0
 12
7.01381
 22
64.33151
 32
0.0
 13
7.01381
 23
64.33151
 33
0.0
  0
SOLID
  8
____1
 62
     6
  5
74
 10
27.45497
 20
64.61523
 30
0.0
 11
26.39612
 21
64.33151
 31
0.0
 12
26.39612
 22
64.89894
 32
0.0
 13
26.39612
 23
64.89894
 33
0.0
  0
LINE
  8
____1
  6
CONTINUOUS
 62
     6
  5
72
 10
5.95497
 20
64.61523
 30
0.0
 11
27.45497
 21
64.61523
 31
0.0
  0
INSERT
  8
____1
  5
75
  2
*G3
 10
13.8487
 20
24.34253
 30
0.0
  0
LINE
  8
____1
  6
CONTINUOUS
 62
     6
  5
76
 10
30.45497
 20
33.86523
 30
0.0
 11
37.45497
 21
33.86523
 31
0.0
  0
SOLID
  8
____1
 62
     6
  5
78
 10
37.45497
 20
10.86523
 30
0.0
 11
37.17125
 21
11.92407
 31
0.0
 12
37.73868
 22
11.92407
 32
0.0
 13
37.73868
 23
11.92407
 33
0.0
  0
SOLID
  8
____1
 62
     6
  5
79
 10
37.45497
 20
33.86523
 30
0.0
 11
37.73868
 21
32.80638
 31
0.0
 12
37.17125
 22
32.80638
 32
0.0
 13
37.17125
 23
32.80638
 33
0.0
  0
LINE
  8
____1
  6
CONTINUOUS
 62
     6
  5
77
 10
37.45497
 20
10.86523
 30
0.0
 11
37.45497
 21
33.86523
 31
0.0
  0
INSERT
  8
____1
  5
7A
  2
*G4
 10
13.8487
 20
24.34253
 30
0.0
  0
LINE
  8
____1
  6
CONTINUOUS
 62
     6
  5
7B
 10
30.45497
 20
35.06523
 30
0.0
 11
44.45497
 21
35.06523
 31
0.0
  0
LINE
  8
____1
  6
CONTINUOUS
 62
     6
  5
7C
 10
30.45497
 20
9.66523
 30
0.0
 11
44.45497
 21
9.66523
 31
0.0
  0
SOLID
  8
____1
 62
     6
  5
7E
 10
44.45497
 20
35.06523
 30
0.0
 11
44.73868
 21
34.00638
 31
0.0
 12
44.17125
 22
34.00638
 32
0.0
 13
44.17125
 23
34.00638
 33
0.0
  0
SOLID
  8
____1
 62
     6
  5
7F
 10
44.45497
 20
9.66523
 30
0.0
 11
44.17125
 21
10.72407
 31
0.0
 12
44.73868
 22
10.72407
 32
0.0
 13
44.73868
 23
10.72407
 33
0.0
  0
LINE
  8
____1
  6
CONTINUOUS
 62
     6
  5
7D
 10
44.45497
 20
35.06523
 30
0.0
 11
44.45497
 21
9.66523
 31
0.0
  0
INSERT
  8
____1
  5
80
  2
*G5
 10
13.8487
 20
24.34253
 30
0.0
  0
TEXT
  8
____
 62
     7
  5
81
 10
19.09262
 20
2.81666
 30
0.0
 40
3.38666
  1
1S へルール
 11
19.09262
 21
2.81666
 31
0.0
 73
     3
  0
ARC
  8
____
  6
CONTINUOUS
 62
     6
  5
82
 10
13.93294
 20
35.86523
 30
0.0
 40
0.8
 50
200.000362
 51
270.000716
  0
ARC
  8
____
  6
CONTINUOUS
 62
     6
  5
83
 10
13.93294
 20
8.86523
 30
0.0
 40
0.8
 50
89.999284
 51
159.999638
  0
LINE
  8
____
  6
CONTINUOUS
 62
     6
  5
84
 10
13.18119
 20
9.13885
 30
0.0
 11
13.18119
 21
22.36523
 31
0.0
  0
ENDSEC
  0
EOF
